TOTO


Informacje

KONCERT TOTO
28.02.2018, Kraków


Live At Montreux 1991 DVD
Live At Montreux 1991


www.toto-music.net
© 2002-2017 Julia Stoff
totomusic@interia.pl



r e k l a m a



H&B      

zespół toto, lukather, kimball, toto, paich, porcaro, phillips, toto, muzyka, phillinganes, toto, lukather, kimball, porcaro, paich, toto, phillips, muzyka zespołu toto, phillinganes, toto koncert 2015, williams, castro

teksty / taby > taby - toto xx

Taby - TOTO XX


Goin' Home
Transcription by Espen Saga (totomania@spray.no)

Intro: Em D A x2
Em D

e|-5--7--7-7-7--5--5-5-5-|
B|-5-(5)-5-5-5-(5)-5-5-5-|
G|-----------------------|
D|-----------------------|
A|-----------------------|
E|-----------------------|
fade out
e|-5--7--7-7-7--5--5-5-5--3-|
B|-5-(5)-5-5-5-(5)-5-5-5--3-|
G|--------------------------|
D|--------------------------|
A|--------------------------|
E|--------------------------|
G (A7)
Midnight on a southern highway
G
Don't know if I'm going the right way
G Bm A/B G
I haven't seen a single sign for miles
G (A7)
All this stormy weather
G
Keeping us from being together
G Bm A/B G
How long has it been since I've seen your smile

G D/F#
In this tunnel called the night
Bm
I can finally see a light
Bm A Em
I've got a burning deep inside
D/F#
I thought you might understand
Bm
I'm driving fast as I can
A
And you said you'd wait for me

D G Bm A
Goin' Home - Cause I've been away much too long
e|---------------------------------------------5-x-x-5-|
B|----3---------------------------3-2-2--------5-x-x-5-|
G|----2-------------------4-------2-2-2----------------|
D|----0-----------------5-------0---2-2----------------|
A|----------------------------2-----0-0----------------|
E|-----------------------------------------------------|
D G Bm A
Goin' Home - Going back to the place where my heart belongs
D/F# G Bm A
Goin' home - Going back where I left my family
D/F# G Bm A
Goin' Home - And I hope that they're still waiting there for me

Intro

In the eyes of the legal tender
You're the one who must surrender
I think they call it responsibility
I'm a man in motion
With only one compulsion
I've got to follow these dreams inside my heart

I'm not looking for a fight
No one's wrong and no one's right
And maybe we all need time apart
So please understand
I'm doing the best that I can
And you said you'd wait for me

Goin' Home - Cause I've been away much too long
Goin' Home - Going back to the place where my heart belongs
Goin' home - Going back where I left my sanity
Goin' Home - And I hope that it's still waiting there for me

Intro

Guitar solo:

Bm A/C# D E E B B
b
e|---------------------|-------------------|
B|---------------------|---17-(19)-(17)----|
G|---------------------|----------------16-|
D|-------------9-9-----|-------------------|
A|-2---4----5--7-7-----|-------------------|
E|-----------------7-7-|-------------------|
Bm A/C# D E E B B
b (release slowly) b
e|---------------------|-----------------------------17-(19)-|
B|---------------------|---17-(19)-(19)-(18)-(17)-15---------|
G|---------------------|-------------------------------------|
D|-------------9-9-----|-------------------------------------|
A|-2---4----5--7-7-----|-------------------------------------|
E|-----------------7-7-|-------------------------------------|
Bm A/C# D E E B B

e|---------------------|------------------------------------------------|
B|---------------------|-------15--------------15--------------15-------|
G|---------------------|-14-16----16-16--14-16----16-16--14-16----16-16-|
D|-------------9-9-----|------------------------------------------------|
A|-2---4----5--7-7-----|------------------------------------------------|
E|-----------------7-7-|------------------------------------------------|
I though you might understand
I'm doing the best that I can
And you said you'd wait for me

Chorus

On The Run
Transcription by Espen Saga (totomania@spray.no)

Riff 1 h p 8 times
e|---------------------------|
B|---------------------------|
G|---9---7-------------------|
D|-----------11--7-9--5-7-5--|
A|-7---7---7-----------------|
E|---------------------------|
G A B C
e|---------------|
B|-3-------------|
G|-0---2---4---5-|
D|-0---2---4---5-|
A|-----0---2---3-|
E|-3-------------|
Riff2
E E G
h h p
e|-------------------------|--------------------|
B|-------------------------|------------------3-|
G|-------------------------|------------------0-|
D|-------------------------|------------------0-|
A|---7---5---4--0-2--------|---7---5---4--0-2---|
E|-0---0---0--------3-5-3--|-0---0---0--------3-|
Riff2A
E G A B C
h h p
e|-------------------------|---------------|
B|-------------------------|-3-------------|
G|-------------------------|-0---2---4---5-|
D|-------------------------|-0---2---4---5-|
A|---7---5---4--0-2--------|-----0---2---3-|
E|-0---0---0--------3-5-3--|-3-------------|
Everybody's moving way too fast
Em Em Em G
p.m.------------------|
e|-----------------------|-------------------------|--------------------|
B|-----------------------|-------------------------|------------------3-|
G|-----------------------|-------------------------|------------------0-|
D|-----------------------|-------------------------|------------------0-|
A|-----------------------|---7---5---4--0-2--------|---7---5---4--0-2---|
E|-0-0-0-0-0-0-0-0-0-0-0-|-0---0---0--------3-5-3--|-0---0---0--------3-|
Before you blink you better find out who's in your path
Em Em G A B C
p.m.------------------|
e|-----------------------|-------------------------|---------------|
B|-----------------------|-------------------------|-3-------------|
G|-----------------------|-------------------------|-0---2---4---5-|
D|-----------------------|-------------------------|-0---2---4---5-|
A|-----------------------|---7---5---4--0-2--------|-----0---2---3-|
E|-0-0-0-0-0-0-0-0-0-0-0-|-0---0---0--------3-5-3--|-3-------------|
The pressure's building up on every side
In my heart I know that I've got nothing to hide

What would make you think that you're the only one
D D C D C D C
e|------------------------------------------------|-----------------|
B|-3----------------------------------------------|-7-5--7-5--7-5---|
G|-2----------------------------------------------|-7-5--7-5--7-5---|
D|-0----------------------------------------------|-7-5--7-5--7-5---|
A|-0----------------------------------------------|---------------2-|
E|------------------------------------------------|-----------------|
Now I know my troubles have just begun, oh yeah
Am G/B C D
e|-----------------------------|------------------|
B|-----------------------------|------------------|
G|-2---------------------------|-4------5-------5-|
D|-2---------------------------|-5------5-------5-|
A|-0---------------------------|-2------3-------7-|
E|-----------------------------|------------------|
Em G D Am
I'm on the run and nobody's stopping me
Em C D Am Am C C
I'm on the run and there's nobody left on my side
Em G D
I'm on the run and I know you're watching me
Am G/B C
There's not enough time to decide

You never know what the night could bring
Every moment all the angels begin to sing
Why the worry - just to save your pride
With all the answers buried so deep inside

It doesn't take a crystal ball to see the truth
It's gonna take a miracle to see this thing through

Chorus

p.m. p.m.
e|----------------------------|
B|----------------------------|
G|----------------------------|
D|----------------------------|
A|-----0-2-5------0-2-5--4--0-|
E|-0-0--------0-0-------------|
Guitar solo

Em G D Am
I'm on the run and nobody's stopping me
Em C D Am Am C C
I'm on the run and there's nobody left on my side
Em G D Am
I'm on the run and I know you're watching me
Em C D Am Am C C
I'm on the run and you can't say that I haven't tried
Em G D
I'm on the run and nobody's stopping me
Em C D Am Am C C
I'm on the run and there's nobody left on my side
Em G D
I'm on the run and I know you're watching me
Am G/B C Em
There's not enough time to decide

Powyższe "taby" są własną pracą autorów i reprezentują ich własne interpretacje piosenek.
[Proszę o kontakt jeśli coś jest nie tak. Nie znam się na muzyce od strony technicznej, więc mogą wystąpić niezamierzone błędy.]


  ⇑ na górę