TOTO


Informacje

KONCERT TOTO
28.02.2018, Kraków


Live At Montreux 1991 DVD
Live At Montreux 1991


www.toto-music.net
© 2002-2017 Julia Stoff
totomusic@interia.pl



r e k l a m a



H&B      

zespół toto, lukather, kimball, toto, paich, porcaro, phillips, toto, muzyka, phillinganes, toto, lukather, kimball, porcaro, paich, toto, phillips, muzyka zespołu toto, phillinganes, toto koncert 2015, williams, castro

teksty / taby > taby - toto iv

Taby - TOTO IV


Rosanna
Transcription by Espen Saga (totomania@spray.no)

A
All I wanna do when I wake up in the morning is see you rise
Rosanna, Rosanna
G F#m7 A DD
I never thought that a girl like you could ever care for me, Rosanna
G
All I wanna do in the middle of the evening is hold you tight
Rosanna, Rosanna
F Em7
I didn't know you were looking for more than I could ever be
G
Rosanna

Chorus:
Am G/H C F C G
Not quite a year since she went away, Rosanna yeah
Am G/H C F C G
Now she's gone and I have to say
G C (Am7)Dm7 F C G
Meet you all the way,
G C (Am7)Dm7 F C G
meet you all the way, Rosanna yeah
G C (Am7)Dm7 F C G
Meet you all the way,
G C (Am7)Dm7 F C G ...A
meet you all the way, Rosanna yeah

I can see your face still shining through the window on the other side
Rosanna, Rosanna
I didn't know that a girl like you could make me feel so sad, Rosanna

All I wanna take is a night you'll never ever have to compromise
Rosanna, Rosanna
I never thought that losing you could ever hurt so bad

chorus
Solo:

------------------------------------------------------6-----
-------------------------6-6\------8-8p6--8b10--8b10--------
---------------------/5-------/5----------------------------
-3--3-3--5-5/7-7~-------------------------------------------
------------------------------------------------------------
------------------------------------------------------------

------------------------------------------------------------ -8b10b8p6--8-6~/-----------------------9-10-13-10-11-13----- --------------------------------10-12----------------------- --------------------------10-12----------------------------- --------------------10/12----------------------------------- ------------------------------------------------------------
-9-10-13-10-13-13(15)(15)-13~--13(15)(15)13~--15-13-15------ ------------------------------------------------------------ ------------------------------------------------------------ ------------------------------------------------------------ ------------------------------------------------------------ ------------------------------------------------------------
B R
-15(17)(18)-(17)15-13~\-------------------------------------
------------------------------------------------------------
------------------------------------------------------------
------------------------------------------------------------
------------------------------------------------------------
------------------------------------------------------------
chorus

Meet you all the way, meet you all the way, Rosanna yeah
Meet you all the way, meet you all the way, Rosanna yeah

Last Solo:

-12b13b12-10----10------------------12-------12-------------
-------------13----11b12------15b17----15b17----15b18-b18~--
-------------------------12~--------------------------------
------------------------------------------------------------
------------------------------------------------------------
------------------------------------------------------------

-------15-------------------------18b21b18-15--------------- -18b20----18-15-18b20-b20~--18-15-------------18-15--------- ------------------------------------------------------------ ------------------------------------------------------------ ------------------------------------------------------------ ------------------------------------------------------------
-----------------------------------------15----------------- -18b22b18-15-----18b20-18b20b18p15-18b20----18b20~---------- -------------17--------------------------------------------- ------------------------------------------------------------ ------------------------------------------------------------ ------------------------------------------------------------
--------17-20p17-18p17----17-------------------------------- -----18----------------20----18p17-20-(15)-18p17-15-18p17--- -/17-------------------------------------------------------- ------------------------------------------------------------ ------------------------------------------------------------ ------------------------------------------------------------
------------------------------------------------------------ -15h17p15--------------------------------------------------- ----------17p14-17-14-16-13--15-17-14h15p14----------------- --------------------------------------------17~\------------ ------------------------------------------------------------ ------------------------------------------------------------
------------------------------------------------------------ -----------------------------------------------15-18\15-13-- -----------------------------14-15-17-14-15-17-------------- --------------------14-15-17-------------------------------- -----------13-15-17----------------------------------------- -/13-15-17--------------------------------------------------
------------------------------------------------------------ ----15------------------------------------------------------ -15----(14)-15b14--12----15-12~\-----------15----15----15--- ----------------------15---------(/12)-/15----15----15------ ------------------------------------------------------------ ------------------------------------------------------------
------------------------------------------------------------ ------------------------------------------------------------ ----15----17----15----17b19-15-17b19-15-17-15--------------- -15----15----15----15-------------------------17~\---------- ------------------------------------------------------------ ------------------------------------------------------------
The ... represents repeating the previous riff lots of times.

-------10------------12---------------------15-------15-----
-13b15----...--15b17----...--15b18~---18b20----18b20--------
------------------------------------------------------------
------------------------------------------------------------
------------------------------------------------------------
------------------------------------------------------------

-18p15----15-------------15--------------------------------- -------18----18-------15----------------------------18------ ----------------17b19-------17b18b17p15-------------17b19--- ----------------------------------------17-15-17-15--------- ------------------------------------------------------------ ------------------------------------------------------------
The T indicates a right-hand tapping thing. the ... represents more repetitions.

------------------------------------------------------------
------------------------------------------------------------
-3-----h10Tp5p3h10Tp5p3h10Tp5p3-h7Tp5p3h10Tp5p3-...---------
---5~\------------------------------------------------------
------------------------------------------------------------
------------------------------------------------------------
Make Believe
Transcription by Espen Saga (totomania@spray.no)

Intro: A Asus4 Em D


Em A
Why don't we make believe we're in love again
Em A
Who said the crimson moon doesn't shine
Em A F#7 Bm
Where do people go when they're lookin' for that one of a kind
Em A
Why don't we make believe that we're sorry
Em A
Why must we hold it all inside
Em A F#7 Bm
Where do lovers go when they're runnin' and there's no place to hide

C G F
Always remember the day we met in the foreign rain
C G A
You were content and we went our separate ways
C A E
No matter which way the wind blows now, hang on to it anyhow
G C D
Don't ever say it could never be the same

Chorus

C G F
Always remember oh that haze on a summer day
C G A
You were content and you took it all away
C A E
I did come here to change your mind, lead you on and waste your time
G C D
All alone in the evening, gettin' day

Solo: A Asus4 Em D

Chorus

Outro: A Asus4 Em D

I Won't Hold You Back
Transcription by Espen Saga (totomania@spray.no)

D A Bm F#m
If I had another chance tonight
D A Bm F#m
I'd try to tell you that the things we had were right
G A G
Time can erase the love we shared
A G A B
But it gives me time to realize just how much you cared

D A Bm F#m
Now you're gone, I'm really not the same
D A Bm F#m
I guess I have myself to blame
G A G
Time can erase the things we said
A G A B
But it gives me time to realize that you're the one who's sad

G Bm A
You know I won't hold you back now
G Bm A
The love we had just can't be found
G Bm A C#m F#sus4 F#
You know I can't hold you back now

D A Bm F#m
Now that I'm alone it gives me time
D A Bm F#m
To think about the years that you were mine
G A G
Time can erase the love we shared
A G A B
But it gives me time to realize just how much you cared

Chorus

Solo

Chorus

Powyższe "taby" są własną pracą autorów i reprezentują ich własne interpretacje piosenek.
[Proszę o kontakt jeśli coś jest nie tak. Nie znam się na muzyce od strony technicznej, więc mogą wystąpić niezamierzone błędy.]


  ⇑ na górę