Wybierz deseń




Informacje

Kontakt:
totomusic@interia.pl
Ostatnie uaktualnienie:
V 2015r.
Nowości na stronie:
TOTO w Polsce - 2015

TOTO - koncerty
23.06.2015
Wrocław
24.06.2015
Warszawa

-----
Wrocław - zdjęcia
galeria 1 galeria 2
Warszawa - zdjęcia
galeria 1 galeria 2
galeria 3 galeria 4
galeria 5
Nowa płyta TOTO
XIV

XIV


Nowe DVD TOTO
35th Anniversary Tour - Live in Poland

35th Anniversary Tour - Live in Poland



Oświadczenie
Steve'a Lukathera

POLSKIE FORUM FANÓW TOTO
Ranking
© 2002 - 2015 Julia Stoff




zespół toto, lukather, kimball, toto, paich, porcaro, phillips, toto, muzyka, phillinganes, toto, lukather, kimball, porcaro, paich, toto, phillips, muzyka zespołu toto, phillinganes, toto koncert 2015, williams, castro

teksty / taby > taby - toto

Taby - TOTO


Child's Anthem
Transcription by Espen Saga (totomania@spray.no)

4 times fade out

> >
e|---------------------|-----|
B|--4-4-4-4-4---4------|-----|
G|--5-5-5-5-5---4------|-----|
D|--5-5-5-5-5---4------|--6--|
A|-----------------6-6-|--4--|
E|-----------------4-4-|-----|
Verse: b
e|-----------------------------------------------|
B|--5--7--5-7-9--10-9-10-12--10--9--7-(9)-(7)-7--|
G|-----------------------------------------------|
D|-----------------------------------------------|
A|-----------------------------------------------|
E|-----------------------------------------------|

e|-----------------------------------------------| B|--9--7-9-10--12-10-12-14--15-14-15-17--15--14--| G|-----------------------------------------------| D|-----------------------------------------------| A|-----------------------------------------------| E|-----------------------------------------------|
b b
e|--------------------------------------------------|
B|--12-(14)-(12)-12--14--12-14-14-(15)-14--12-14-12-|
G|--------------------------------------------------|
D|--------------------------------------------------|
A|--------------------------------------------------|
E|--------------------------------------------------|
b b
e|----------------------------------------|
B|--15--14-(15)-(14)-14--13-(14)-(13)-13--|
G|----------------------------------------|
D|----------------------------------------|
A|----------------------------------------|
E|----------------------------------------|
End: 7 times 8th time fade out
> > > >
e|---------------------|----------------------|
B|--4-4-4-4-4---4------|---4-4-4-4-4---4------|
G|--5-5-5-5-5---4------|---5-5-5-5-5---4------|
D|--5-5-5-5-5---4------|---5-5-5-5-5---4------|
A|-----------------6-6-|------------------6-9-|
E|-----------------4-4-|------------------4-7-|
I'll Supply The Love
Transcription by Espen Saga (totomania@spray.no)

C#m B A A B C#m B A

e|---------------|----------------------|
B|--5--4-4--2-2--|-2--4--5-5--4-4--2-2--|
G|--4--4-4--2-2--|-2--4--4-4--4-4--2-2--|
D|--6--4-4--2-2--|-2--4--6-6--4-4--2-2--|
A|---------------|----------------------|
E|---------------|----------------------|
C#m B A A B C#m B A
You supply the night, baby I'll supply the love
You supply the night, baby I'll supply the love

H > > > > >
e|-------------------------------------------|
B|--4-(5)-5-x-x--4-5--x-x--4-5--x-x--4-5--4--|
G|--4-(4)-4-x-x--4-4--x-x--4-4--x-x--4-4--4--|
D|--4-(6)-6-x-x--4-6--x-x--4-6--x-x--4-6--4--|
A|--4-(4)-4-x-x--4-4--x-x--4-4--x-x--4-4--4--|
E|-------------------------------------------|
I see a horseman in the sky it makes me turn and wonder why
I hear the same fourteen reasons must be the changin' of the seasons

Chorus

I met the girl across the sea she saved my life and came to me
A tender night of dark persuasion could be my first and last occasion

Chorus

Bridge:
C#m D#m E G#m D#m F#m C#m
b
e|--------------------------------------------------|
B|--------------------------------------------------|
G|----6----8----9----13---12--11-(12)-11--11--9--6--|
D|-6------------------------------------------------|
A|--------------------------------------------------|
E|--------------------------------------------------|
C#m D#m E G#m D#m F#m A B
b
e|--------------------------------------------------|
B|--------------------------------------------------|
G|----6----8---9--13---12--11-(12)-11--11--9--6--8--|
D|-6------------------------------------------------|
A|--------------------------------------------------|
E|--------------------------------------------------|
Chorus

p.m.------------------------| > > >
e|------------------------------------------|
B|------------------------------------------|
G|---------------------------------6--6--8--|
D|-----------------------1-1-1--2--4--4--6--|
A|--0-0-0--2-2-2--4-4-4---------------------|
E|------------------------------------------|
Georgy Porgy
Transcription by Espen Saga (totomania@spray.no)

Cmaj7 Bm7 Em7
It's not your situation, I just need contemplation over you
Cmaj7 Bm7 Em7
I'm not so systematic, it's just that I'm an addict for your love

Cmaj7 Am
I'm not the only one that holds you, I never ever should have told you
B7
You're my only girl
Cmaj7 Am
I'm not the only one that holds you, I never ever should have told you
B7
You're my only world

Cmaj7 Bm7 Em7
Just think how long I've known you, it's long for me to own you lock and key
Cmaj7 Bm7 Em7
It's really not confusing, I'm just the young illusion can't you see

Chorus

Em7 E half diminished
Georgy Porgy pudding pie, kissed the girls and made them cry

> >
e|--7-7-7--7--7--7--7--7--7-------|
B|--8-8-8--8--8--8--8--8--8--8-8--|
G|--7-7-7--7--7--7--7--7--7--7-7--|
D|--9-9-9--9--9--9--9--9--9--8-8--|
A|--7-7-7--7--7--7--7--7--7--7-7--|
E|--------------------------------|
> >
e|--7-7-7--7--7--7--7--7--7---------|
B|--8-8-8--8--8--8--8--8--8--10-10--|
G|--7-7-7--7--7--7--7--7--7---9--9--|
D|--9-9-9--9--9--9--9--9--9--10-10--|
A|--7-7-7--7--7--7--7--7--7---9--9--|
E|----------------------------------|
Guitar solo: (Cmaj7 Bm7 Em7 x2)
w/ slide
e|---------------------------------------------|
B|--/12--15\12--15\10--12-8--7-5-5-------------|
G|---------------------------------------------|
D|---------------------------------------------|
A|---------------------------------------------|
E|---------------------------------------------|
Two guitars

e|--/10--14\10--14\10--12-7--5/7/10/12/15/17/19-|
B|--/12--15\12--15\10--12-8--3/5/-7/-8/10/12/15-|
G|----------------------------------------------|
D|----------------------------------------------|
A|----------------------------------------------|
E|----------------------------------------------|
It's not your situation, I just need contemplation over you
I'm not so systematic, it's just that I'm an addict for your love

Chorus

Georgy Porgy pudding pie...

Manuela Run
Transcription by Espen Saga (totomania@spray.no)

e|------------------------3-3-3---------------------------|
B|--2-3-5--5-3-2--2-------3-3-3--3-2-2--------3-2-2-------|
G|--2-2-2--2-2-2--2--2-2--0-0-0--2-2-2--------2-2-2-------|
D|-------------------1-1----------------------------------|
A|--------------------------------------------------------|
E|--------------------------------------0-2-5-------0-2-5-|
Don't look now you better watch
That sword that's hanging over you
It's a long hard road and they will spit you out
When they get through with you

D G F#m
X2 b b
e|-------------3-|-----------------------|----------|
B|--x-x-3--x-x-3-|---9-(10)-9-(10)--9----|----------|
G|--x-x-2--x-x-0-|--------------------9--|----------|
D|------0------0-|-----------------------|----------|
A|---------------|-----------------------|----4--2--|
E|-------------3-|-----------------------|-2--------|
Don't hang your head so the wise man said
Or boy you'll soon be dead

D A E
e|------------------------------------------------|
B|-x-x-7--x-x----x-x-9-----7-----9-----x-x-10-10--|
G|-x-x-7--x-x----x-x---9-----9-----9---x-x--------|
D|-x-x-7--x-x-7--x-x-----9-----9-----9------------|
A|-----5------7-----------------------------------|
E|------------5-----------------------------------|
D A E
You better run, run Manuela-uela run
D A E
They're gonna shoot you in the back with your own gun
D A E F#m D
You better run, run Manuela-uela run, Manuela run

There's no more time for living out your life
Your sky is falling down
Don't close your eyes or make a wish on three
Cause they will still be 'round

Don't hang your head, so the wise man said
Or boy you'll soon be dead

Chorus

A E G D A
e|-------------------------------------------------------|
B|-14-15-17--17-15-14-12-(14)-12-12-15-15-15-15-14-14----|
G|-------------------------------------------------------|
D|-------------------------------------------------------|
A|-------------------------------------------------------|
E|-------------------------------------------------------|
A E G D A
e|-----------------------14-16--16-17-19-21-(22)-21-21-|
B|-14-15-17--17-15-14-17-------------------------------|
G|-----------------------------------------------------|
D|-----------------------------------------------------|
A|-----------------------------------------------------|
E|-----------------------------------------------------|
A
e|-21-(22)-(21)-19-17-----------------------------17-|
B|--------------------19-17-15-----------------------|
G|-----------------------------18-(19)-(18)-16-14----|
D|---------------------------------------------------|
A|---------------------------------------------------|
E|---------------------------------------------------|
Don't hang your head so the wise man said
Or boy you'll soon be dead

Chorus

Girl Goodbye
Transcription by Espen Saga (totomania@spray.no)

Intro (Keyboard)

| Em/B |B |Em/B |B | 4 X

Riff A

|-------------------------------------|--------------------------------------|
|-------------------------------------|--------------------------------------|
|-------------------------------------|--------------------------------------|
|-------------------------------------|--------------------------------------|
|-------------------------------------|-----------------------4----5--5~~----|
|---5----7------5----7------5-----7---|---5-----7---5---7--------------------|
Riff A'

P.M. ............................... P.M. ................................
|-------------------------------------|--------------------------------------|
|-------------------------------------|--------------------------------------|
|-------------------------------------|--------------------------------------|
|-------------------------------------|--------------------------------------|
|-------------------------------------|-----------------------4----5--5~~----|
|---5----7------5----7------5-----7---|----5-----7---5---7-------------------|
Riff A"

|-------------------------------------|--------------------------------------|
|-------------------------------------|--------------------------------------|
|-------------------------------------|------------------------------------2-|
|-------------------------------------|---------------------0----2----4------|
|-------------------------------------|-----------0----2---------------------|
|---5----7------5----7------5-----7\--|------2-------------------------------|
Riff B

|--------7----7---------7-------------|-/-9------9---9---X-------------------|
|--------8----8---------8-------------|-/10-----10--10---X--7----------------|
|--------7----7------X--7-------------|-/-9------9---9---X--7----------------|
|--------9----9------X--9-------------|---------------------9----------------|
|-------------------------------------|--------------------10----------------|
|-------------------------------------|--------------------------------------|

|-------------------------------------|--------------------------------------| |-------------------------------------|--------------------------------------| |-------------------------------------|--------------------------------------| |-------------------------------------|--------------------------------------| |-------------------------------------|--------------------------------------| |-------------------------------------|--------------------------------------|
Riff C

|-------------------------------------|---------------------5-------6--------|
|----------8--------8---10---8----7---|---------------------5-------6--------|
|----------7--------7----7---7----7---|---------------------6-------7--------|
|-------------------------------------|--------------------------------------|
|-------------------------------------|--------------------------------------|
|-------------------------------------|--------------------------------------|
Riff C'

|-------------------------------------|---------------------5----------------|
|----------8--------8---10---8----7---|---------------------5----------------|
|----------7--------7----7---7----7---|---------------------6----------------|
|-------------------------------------|--------------------------------------|
|-------------------------------------|--------------------------------------|
|-------------------------------------|--------------------------------------|
Riff D

|-------------------------------------|--------------------------------------|
|-------------------------------------|--------------------------------------|
|-------------------------------------|--------------------------------------|
|-------------------------------------|-------------------------4------------|
|---5----7------5----7------5-----7---|---5------7----5----7\----------------|
|-------------------------------------|--------------------------------------|
Riff E

|-------------------------------------|--------------------------------------|
|-------------------------------------|--------------------------------------|
|----5----------------0-----2---------|--------------------------------------|
|----5----------------0-----2---------|--------------------------------------|
|----3----------------X-----0---------|--------------------------------------|
|---------------------3---------------|--------------------------------------|
Intro

Riff A x4

VERSE

Riff A'------------------ Riff A'----------------
Well, I'm out on the road, and the devil's got my soul.

Riff B---------------------------- Riff A'--------------
And I'm lookin' for the Lord in New York City

Riff A'------------------Riff A'-----------------
Hey, I'm out on the run. Got some heat, got a gun


Riff B---------------------------- Riff A'
If they don't find me soon, it'll be damn pity

Riff A"

CHORUS

Riff C-----------------------------------
So it's Goodbye, girl, goodbye girl, girl goodbye

Riff A'

Riff C'----------------------------------------
It's so hard to see the truth with the sun in your eyes.

Riff D

Riff C------------------------------------
Goodbye, girl, goodbye, girl, girl goodbye

Riff A'

Riff A'-------------Riff E-------------------------
Must be in the way that you cry

Riff A'-------------Riff E-------------------------
Must be in the way that you cry

Riff A'-------------Riff E-------------------------
Must be in the way that you cry

Riff A x4

VERSE -> Chorus

Solo guitar with Riff A

Intro 2X

Riff A 4X

Chorus

Riff A ...

Hold The Line
Transcription by Espen Saga (totomania@spray.no)

F#m C#m D E F#m C#m D E
e|-------------------|-------------------|-------------|
B|-------------------|-------------------|-------------|
G|--11\--6--7-7--9\--|--11\--6--7-7--9\--|-------------|
D|--11\--6--7-7--9\--|--11\--6--7-7--9\--|-------------|
A|---9\--4--5-5--7\--|---9\--4--5-5--7\--|--/7--4-3-2--|
E|-------------------|-------------------|-------------|
Verse:
e|--------------------------|--------------------------|
B|--------------------------|--------------------------|
G|--------------------------|--------------------------|
D|----------2-4---2-4-------|----------2-4---2-4-------|
A|-2-3-4--4-----4-----4-3-2-|-2-3-4--4-----4-----4-3-2-|
E|--------------------------|--------------------------|
X2
e||----------------------------||----------------------|
B||----------------------------||----------------------|
G||----------------------------||-------------------9--|
D||----------------------------||-------------------9--|
A||-2-3-4--3-4-5--4-5-7--4-3-2-||-2-3-4--3-4-5--4-5-7--|
E||----------------------------||----------------------|
It's not in the way that you hold me
It's not in the way you say you care
It's not in the way you've been treating my friends
It's not in the way that you stayed till the end
It's not in the way you look or the things that you say that you'll do

F#m C#m D E F#m C#m D E
Hold the line, love isn't always on time, oh oh oh

F#m C#m D E F#m C#m D E
e|-------------------|-------------------|-------------|
B|-------------------|-------------------|-------------|
G|--11\--6--7-7--9\--|--11\--6--7-7--9\--|-------------|
D|--11\--6--7-7--9\--|--11\--6--7-7--9\--|-------------|
A|---9\--4--5-5--7\--|---9\--4--5-5--7\--|--/7--4-3-2--|
E|-------------------|-------------------|-------------|
It's not in the words that you told me, girl
It's not in the way you say you're mine, ooh
It's not in the way that you came back to me
It's not in the way that your love set me free
It's not in the way you look or the things that you say that you'll do

Chorus

Solo

It's not in the words that you told me
It's not in the way you say you're mine, ooh
It's not in the way that you came back to me
It's not in the way that your love set me free
It's not in the way you look or the things that you say that you'll do

Chorus

Powyższe "taby" są własną pracą autorów i reprezentują ich własne interpretacje piosenek.
[Proszę o kontakt jeśli coś jest nie tak. Nie znam się na muzyce od strony technicznej, więc mogą wystąpić niezamierzone błędy.]