TOTO


Informacje

KONCERT TOTO
28.02.2018, Kraków


Live At Montreux 1991 DVD
Live At Montreux 1991


www.toto-music.net
© 2002-2017 Julia Stoff
totomusic@interia.pl



r e k l a m a



H&B      

zespół toto, lukather, kimball, toto, paich, porcaro, phillips, toto, muzyka, phillinganes, toto, lukather, kimball, porcaro, paich, toto, phillips, muzyka zespołu toto, phillinganes, toto koncert 2015, williams, castro

teksty / taby > taby - tambu

Taby - Tambu


Gift Of Faith

tune down 1/2 step

Riff:
4 times
e|-----------------------------|-------------------|
B|-----------------------------|-------------------|
G|--2--0--x-2---0--2--2-4-2-0--|--2----------------|
D|--0--0--x-0---0--0--0-0-0-0--|--0--4-x-5---------|
A|-----------------------------|-----5-x-5---2--3--|
E|-----------------------------|-------------------|
Verse:
D Fsus2 Cadd9* Bb*
e-|------------------------|
B-|--3---/-6------5-----3--|
G-|--2---/-5---------------|
D-|--0----(0)--------------|
A-|------------------------|
E-|------------------------|
* = fade in & out with volume knob

D Fsus2 Cadd9
All this pain sourrounding me, hopelessness is all that I see now
Bb D
Does it have to be this way?
D Fsus2 Cadd9
Brought up on hypocrisy, the seeds they sow don't last forever
Bb D
They just fade away

fade in & out with volume knob
Am G
e|-----------3---|
B|-----------3---|
G|--2--------0---|
D|--2--------0---|
A|--0------------|
E|-----------3---|
Am G D
Don't be confused by the lies of the fools and deceivers

D D
e|-----------------------------|-----------------------------|
B|-----------------------------|-----------------------------|
G|--2--0--x-2---0--2--2-4-2-0--|--2--0--x-2---0--2--2-4-2-0--|
D|--0--0--x-0---0--0--0-0-0-0--|--0--0--x-0---0--0--0-0-0-0--|
A|-----------------------------|-----------------------------|
E|-----------------------------|-----------------------------|
Am G F Am
e|-----------3---|--5----------5--------|
B|-----------3---|-----6----------5-----|
G|--2--------0---|--------5----------5--|
D|--2--------0---|----------------------|
A|--0------------|----------------------|
E|-----------3---|----------------------|
Am G F Am
Hope and believe in the things that we need to survive

D C F C D
We can make it if we only take the gift of faith
D C F C D
We can change it if we'd just accept the gift of faith

Take away my dignity take away my hope and my freedom
You got a world full of rage
Don't cover me with apathy, don't buy and sell what I believe it
Don't lock me in a cage

In a world where no one's alone, trust should come easily
Just reach out your hand, and I'll give you mine

Chorus

Bridge

Chords over riff: A G F# F

3 times
e-|-----------------------------------|
B-|-----------------------------------|
G-|----2--0----0----------------------|
D-|----------4----4-2-0--4/5\4--0--2--|
A-|--0--------------------------------|
E-|-----------------------------------|
4th time
e-|-----------------------------------|
B-|-----------------------------------|
G-|----2--0----0----------------------|
D-|----------3----3-2-0--2/3\2--0--2--|
A-|--0--------------------------------|
E-|-----------------------------------|
A G F# F
If we go down, we go together
A G F# F
Just open your mind

Solo:
b pre-bend
e-|---------------------------13--|--15-(17)--13-15--(15)-13-10--|
B-|-----15-15--13------15-15------|------------------------------|
G-|--14-------------14------------|------------------------------|
D-|-------------------------------|------------------------------|
A-|-------------------------------|------------------------------|
E-|-------------------------------|------------------------------|
b H P
e-|-------------------------------------|----------------------|
B-|--10----13--10--------13-------------|----------------------|
G-|-----12--------12--10----10-(12)-10--|--10-12-10------------|
D-|-------------------------------------|------------12-10--12-|
A-|-------------------------------------|----------------------|
E-|-------------------------------------|----------------------|
Don't be confused by the lies of the fools and deceivers
Hope and believe in the things that we need to survive

Chorus

The Turning Point

tune down 1/2 step

Riff:
e|-----------|-------------|
B|-----------|-------------|
G|-----------|-------------|
D|-----------|-------------|
A|-----------|--2--5--7----|
E|--0--3--5--|----------0--|
Guitar fill:
e|--3--5-3--------|
B|---------5---5--|
G|-----------4----|
D|----------------|
A|----------------|
E|----------------|
I went down to the highway that runs between love and pride
And I tried to get sideways across the great divide
But my mind's eye's on the key ring crying in misery
Cause it won't spend one more evening staring back to me

D A/C# E
e|--------------|-0-0-0--0-0-0--|
B|--------------|-3-3-3--3-2-0--|
G|--7---6-------|---------------|
D|--7---7-------|---------------|
A|--5---4-------|---------------|
E|-----------0--|---------------|
D A/C# E
It may be by choice or a small inner voice I can't say
D A/C#
When you add up the cost we all have a cross
C B
How do you write off the loss?

E G A B D E
Where do I go from here? How do I find my way?
E G A G A
When is it loud and clear, that there's no turning back? No looking back
E G A B D E
Where do I go from here? Nobody gets away
D A/C#
It's a new kind of fix, for the poor and the rich
C B
You never know what's coming next at the turning point

X2
e|-----------|-------------|
B|-----------|-------------|
G|-----------|-------------|
D|-----------|-------------|
A|-----------|--2-5--------|
E|--0--3--5--|------5-3-0--|
The rules are unwritten and nobody knows the deal
Where have I been driven are deamons behind the wheel?
Yeah, I know my days are numbered we're only flesh and bone
And I've been left to wonder how it went so wrong

Is it all tailor made, can the sinner be saved I can't say
So don't hang your hat on the knife im my back
Cause nobody treats me like that

Chorus
X3 C B
e|-----------------|-----------------| |------------------|
B|-----------------|-----------------| |------------------|
G|-----------------|-----------------| |--5-5-5-5-5-5--4--|
D|-----------------|-----------------| |--5-5-5-5-5-5--4--|
A|----5---7--------|-----5---7-------| |--3-3-3-3-3-3--2--|
E|--5---5---0-0-0--|--5---5---0-0-0--| |------------------|
Guitar fill
e|----------------|
B|---10-(12)---8--|
G|--x---------x---|
D|-x---------x----|
A|----------------|
E|----------------|
Chorus

...at the turning point

Guitar fill repeat and fade
e|-------------------------------------------||---------|-----------||
B|--x-x-x-x--3--5----------------------------||---------|-----------||
G|--x-x-x-x--------0--2----------------------||---------|-----------||
D|--x-x-x-x-------------x-x--2--5--2--x-x-x--||---------|-----------||
A|----------------------x-x-----------x-x-x--||---------|-2-5-------||
E|-------------------------------------------||-0--3--5-|-----5-3-0-||
Time Is The Enemy
Transcription by Espen Saga (totomania@spray.no)

p.m.---------------------------------------| 
p.m.--------|
e|----------------------------------|--------------------------------|
B|----------------------------------|-----------3--3-----------------|
G|----------------------------------|-----------2--2-----------------|
D|----------------------------------|-----------0--0-----------------|
A|--0-0-0-0-0-0-0-0--2-2-2-2-2-2-2--|--------------------------------|
E|----------------------------------|--3-3-3-3--3--3--3-3-3-3-3-3-3--|
Those days we gave our all - Unaffected
I bravely faced the fall - No refelction
Freak armies of the night - Misdirected
I fought the useless fight - Unprotected

Gmaj7 Asus4 Gmaj7/E Asus4
Don't cry for me, time is the enemy
Cadd9 G Fmaj7/4#
Soon I'll be free I surrender

Sweet moon, she marks the year - Unreflected
How sad she has no tears - So neglected

Chorus

Drag Him To The Roof

p.m. p.m. p.m. p.m.
e|--------------------------|--------------------------0--|
B|--------------------------|--------------------------0--|
G|--------------------------|-----------------------------|
D|-2----------------0-2-0---|-2----------------0-2-0------|
A|--------------------------|-----------------------------|
E|---0-0--3--0-0--3-------3-|---0-0--3--0-0--3-------3----|
They keep looking through the window - a cathode glaze across their eyes
Not that I've betrayed, I must be well behaved, I'll drink corruption with their lies

G A G A
Why was I hiding out? What am I running from?
G A Bm G A
Why are they waiting? Have I always been the chosen one?

B C#m A E B C#m A
Drag him to the roof, just push me over. I've got no better place to be
B C#m A E B C#m D C Bb A
Drag him to the roof, let's get it over it's a perfect day to punish me

I wish that lady would defend me. I can't abide by all the laws
I'll buy the magistrate, can't be a second late, I anxiously await his call

G A G A
Who made this jigsaw puzzle? Who'll put the pieces back?
G A Bm G A
Who'll come and get me when I have fallen through the cracks?

Chorus

Just Can't Get To U
Transcription by Espen Saga (totomania@spray.no)

C Am G C Am
I'm drivin' through the rain, just to talk to you again
F G F G
Please don't run away this time, until I say what's on my mind
C Am G C Am
Tonight I need to stay with you, this time I'm not passing through
F G F G
Tear down the walls around your heart, and though I know it's who you are

C F Dm F
I just can't get to you girl, oh yeah I just can't get to you
C F Dm F G
If you won't let me through girl. Oh no, I just can't get to you

C Am G C Am
You say you really need me here, so I can't let you disappear
F G F G
Even though it's getting late, somehow I seem to hesitate

Chorus

Bb C Am Bb C Am
You're afraid that you'll get hurt again. Yes, I know how it feels
Bb C Dm F
Don't surrender, that's not way to win, let it go let me in
C
Cause I just can't get to you

The Road Goes On

tune 1/2 step down

E D A
Not by way of an apology
E D A
For the things that I have done
E D A D G D Cadd9 x2
Do I set my boat upon the sea
E D A
So like thunder I am breaking free
E D A
In the landscape of the heart
E D A
It's hard to tell what's really taken me

D G D Cadd9 - D G D Am Bm

Cadd9 Em D G/B
Now I see it all through different eyes
Cadd9 Em D G/B
This emotion can't be wrong
Cadd9 Em D G/B
Past the mountains under empty skies
Am G/B C D E
And the road goes on and on

I've been living through this poetry
Tangled words and worm out prose
Love is needing, love is bleeding me

Chorus

Solo: D G/B Am G/B X4
D Am G/B

b b b
e|--------------------------|------------------------------------|
B|--------------------------|------------------------------------|
G|---------7-9--7-(9)-(7)-7-|-4-(5)-(4)-(5)--0-2-4-2-(4)-(2)-0-2-|
D|-----7-9------------------|------------------------------------|
A|--10----------------------|------------------------------------|
E|--------------------------|------------------------------------|
b hold bending hold bending
e|------------------------------------------------------|
B|--------------------10----------15-------------15-----|
G|--11-(12)-(11)-9-7------14-(16)----14--14-(16)----14--|
D|------------------------------------------------------|
A|------------------------------------------------------|
E|------------------------------------------------------|
b b b b b
e|-----------------------------14-(15)-14-(15)-14-14-15-17-15-(17)-|
B|---------15-17-15-(17)-15-15-------------------------------------|
G|-14-(16)---------------------------------------------------------|
D|-----------------------------------------------------------------|
A|-----------------------------------------------------------------|
E|-----------------------------------------------------------------|
Chorus

Powyższe "taby" są własną pracą autorów i reprezentują ich własne interpretacje piosenek.
[Proszę o kontakt jeśli coś jest nie tak. Nie znam się na muzyce od strony technicznej, więc mogą wystąpić niezamierzone błędy.]


  ⇑ na górę