Wybierz deseń




Informacje

Kontakt:
totomusic@interia.pl
Ostatnie uaktualnienie:
V 2015r.
Nowości na stronie:
TOTO w Polsce - 2015

TOTO - koncerty
23.06.2015
Wrocław
24.06.2015
Warszawa

-----
Wrocław - zdjęcia
galeria 1 galeria 2
Warszawa - zdjęcia
galeria 1 galeria 2
galeria 3 galeria 4
galeria 5
Nowa płyta TOTO
XIV

XIV


Nowe DVD TOTO
35th Anniversary Tour - Live in Poland

35th Anniversary Tour - Live in Poland



Oświadczenie
Steve'a Lukathera

POLSKIE FORUM FANÓW TOTO
Ranking
© 2002 - 2015 Julia Stoff




zespół toto, lukather, kimball, toto, paich, porcaro, phillips, toto, muzyka, phillinganes, toto, lukather, kimball, porcaro, paich, toto, phillips, muzyka zespołu toto, phillinganes, toto koncert 2015, williams, castro

teksty / taby > taby - mindfields

Taby - Mindfields


High Price Of Hate
Transcription by Espen Saga (totomania@spray.no)

w/bar (with palm)
\/
|-----------------------------------------------------------------------|
|---12-----12-----12-----------8------10----(12)-(10)---5-----5---------|
    |---12-----11-----10-----------7------9-----(11)-(9)----4-----3---------| X 2
|---12-----11-----10-----------7------9-----(11)-(9)----4-----3---------|
|-----------------------------------------------------------------------|
|---0------0------0------------0------0-----(0)--(0)----------------3---|
w/bar (with palm)
\/
|-----------------------------------------------------------------------|
|---12-----12-----12-----------8------10----(12)-(10)---5-----5---------|
|---12-----11-----10-----------7------9-----(11)-(9)----4-----3---------|
|---12-----11-----10-----------7------9-----(11)-(9)----4-----3---------|
|---0------0------0------------0------0-----(0)--(0)--------------------|
|-------------------------------------------------------4-----3---------|
|_____|
inch

|---------------------------------3----3----3----------------3----------|
|--------0------------0-----------5----4----3----------------3----------|
|------2---2--------0---0---------5----4----3----------------2----------|
|----2-------2----1-------1-----------------3----------------1----------|
|---------------------------------5----4----3------0--1--2---2----------|
|--0------------0-------------------------------------------------0-----|
Transcribed by sylvain bidel (mindfields@free.fr)

No Love
Transcription by Espen Saga (totomania@spray.no)

(tune 1/2 step down - drop D tuning)

Riff A Fill 1
3 times 4th time
e|----0--------------| e|-----0-0-0-|
B|----3------1-------| B|-----3-3-3-|
G|----2--0-2---2-0---| G|-----2-0-2-|
D|----0------------3-| D|-----0-0-0-|
A|-------------------| A|-----------|
D|-0-----------------| D|-0---------|
Verse:
Fsus2 G D Fsus2 G D
e|--1---3-|-0-|--1---3----0-0-0-|
B|--1---3-|-3-|--1---3----3-3-3-|
G|--0---0-|-2-|--0---0----2-0-2-|
D|--3---5-|-0-|--3---5----0-0-0-|
A|--3---5-|-0-|--3---5----------|
D|--------|-0-|---------0-------|
Fsus2 G D
At the end of my life when it's time to depart
Fsus2 G D
Will the last face I see be yours
Fsus2 G D
When I take my last breath and I drift through the dark
Fsus2 G D
Will I look 'round and still feel secure

G A
It's no sacrifice to stay by your side
Cadd9 D w/ Fill 1
Till hell freezes clear to the core
G A
Whatever the price, no matter how high
Cadd9 G/B
Over your shoulder when you turn around I'll be tellin' you

D Cadd9 G Fsus2
No love will ever be stronger
D Cadd9 G Fsus2
No love anywhere
D Cadd9 G Fsus2
No love will ever last longer
Cadd9 G/B Fsus2 G D
If I can't have your love I don't want no love at all

Riff A x3
Fill 1

I'll put my change on the dresser next to your scarf
Cook my heart in the skillet next to yours
Ten thousand tears lead up to now
You are the treasure for sure

Lines on my face get deeper each day
But the feelings are ageless and smooth
One single trace of doubt still remains
Over my shoulder when I turn around you'll be tellin' me

Chorus

Riff A x3
Fill 1

Armonica solo

G Bb D D
G Bb F G D

G A
It's no sacrifice to stay by your side
Cadd9 D w/ Fill 1
Till hell freezes clear to the core
G A
Whatever the price, no matter how high
Cadd9 G/B
Over your shoulder when you turn around I'll be tellin' you

Chorus

Riff A x3
Fill 1

Caught In The Balance
Transcription by Espen Saga (totomania@spray.no)

Intro:
p.m.-------| p.m.-|
e|--------------------------------------|----|
B|--------------------------------------|----|
G|--------------------------------------|-9\-|
D|-5-5-5-5-5-5--7\----------------------|-7\-|
A|------------------5--5--5-3-5/7-5\3---|----|
E|------------------------------------5-|----|

p.m.--| p.m.--| \/ \/ \/ \/ p e|---------------------------------------------| B|--------------------------7---5--------------| G|----------------------------------5----------| D|-5-5-5--5--5-5-5--5--7-4--------------7--(5)-| A|---------------------------------------------| E|---------------------------------------------|
h.------| \/ w/ fingers
e|-------------12-----12--||----------------------|| B|----7-----------10-(10)-||--10-10-10-8--8-8-8-7-|| G|--5---7-----------------||---9--9--9-9--7-7-7-7-|| D|--------7---------------||----------------------|| A|------------------------||----------------------|| E|------------------------||----------------------||
Riff A:
w/ fingers
e|----------------------------|
B|-8-7---7-5---5--3-----------|
G|-7-7---5-5---3--3---7-5-----|
D|--------------------7-5-7-5-|
A|------------------------7-5-|
E|----------------------------|
Verse:
Am F G
w/ fingers 1.
e|----------------------------------|----------------------------|
B|----------------------------------|----------------------------|
G|---9-9-x-9-9---9\5--9-9---9-9-7-9-|-7-x-7--5--7-7-7-5--7--5----|
D|---7-7-x-7-7---7\3--7-7---7-7-7-7-|-7-x-7--5--7-7-7-5--7--5--7-|
A|-0-----------0----------0---------|--------------------------7-|
E|----------------------------------|----------------------------|
G

2.
e|----------------------|
B|-------------5-3--5-3-|
G|-7-x-7--5-7--5-3--5-3-|
D|-7-x-7--5-7-----------|
A|----------------------|
E|----------------------|
What happened to me it seems so long ago
The cuts run deep and the scars still show
I live in the shadows where it's been so hard to grow
I'm still a servant in a nobleman's robes

Pre-Chorus:
F G Eb
e|---------------------|---------------------|-----------------|-------------|
B|---------------------|---------------------|-----------------|-------------|
G|-10-10--12-12--10-10-|-12-12--14-14--12-12-|-8-8--10-10--8-8-|-8--8-7------|
D|-10-10--10-10--10-10-|-12-12--12-12--12-12-|-8-8---8--8--8-8-|-8--8-8-10-8-|
A|---------------------|---------------------|-----------------|--------10-8-|
E|---------------------|---------------------|-----------------|-------------|
F G Eb
e|---------------------|---------------------|-----------------|
B|---------------------|---------------------|-----------------|
G|-10-10--12-12--10-10-|-12-12--14-14--12-12-|-8-8--10-10--8-8-|
D|-10-10--10-10--10-10-|-12-12--12-12--12-12-|-8-8---8--8--8-8-|
A|---------------------|---------------------|-----------------|
E|---------------------|---------------------|-----------------|
Eb F Bb C
e|---------------------|
B|---------------------|
G|-x-x-x-x-------------|
D|-x-x-x-x--8-10\--3-5-|
A|-x-x-x-x--6--8\--1-3-|
E|---------------------|
You know my weakness girl you know my kind
You helped me see when I was blind

D Bb C Bb
It's a crime to live my life without you
D Bb C C Bb C Bb
Serve out my years in darkness
D Bb C Bb
Inside these walls I die without you

And when I close my eyes... I'm caught in the balance
F G Am
e|-------------------------|---------------------|---|
B|-------------------------|---------------------|---|
G|-10-10--12-12--10-10-----|-12-12--14-14--12-12-|-9-|
D|-10-10--10-10--10-10-----|-12-12--12-12--12-12-|-7-|
A|-------------------------|---------------------|-0-|
E|-------------------------|---------------------|---|
- Riff A -

Afraid of the hurricane I hide in my domain
I need release from all this pain
Please don't forsake me in these ruins of your home
I can't wait forever don't leave me alone

I have a secret if you want to learn
I will surrender in return

Chorus

Guitar solo:

w/bar w/bar
\/ \/ p pre-b
e|-15-(12)-(15)-12----------------------------------------------------|
B|-----------------15--13-15-(13)-15----13-15-15-(17)-15-(17)-15-(17)-|
G|-----------------------------------14-------------------------------|
D|--------------------------------------------------------------------|
A|--------------------------------------------------------------------|
E|--------------------------------------------------------------------|
b b b
e|--------------------12---------12---------12-15---------12-15-14----|
B|---------12-15-(17)----15-(17)----15-(17)-------15-(17)-------------|
G|-14-(16)------------------------------------------------------------|
D|--------------------------------------------------------------------|
A|--------------------------------------------------------------------|
E|--------------------------------------------------------------------|

e|-15-14-12-----------------------------------------------------------| B|----------15-13-12--------------------------------------------7-----| G|-------------------14-12-11-----------------------5-----7-(9)---7---| D|----------------------------14-12-10----------5-7---7---------------| A|-------------------------------------12-----7-----------------------| E|----------------------------------------12--------------------------|
b b b h p
e|-----------------------------------17----20-(22)-(20)--17-20-17-----|
B|---------13-------------17-----/17----17----------------------------|
G|-12-(14)----12--17-(19)----17---------------------------------------|
D|--------------------------------------------------------------------|
A|--------------------------------------------------------------------|
E|--------------------------------------------------------------------|
b b p p p p p p p p
e|-20-(24)-20-17-20-17----------20-19-17------------------------------|
B|----------------------20-(22)----------20-19-17-20-19-17------------|
G|---------------------------------------------------------19-17-16---|
D|--------------------------------------------------------------------|
A|--------------------------------------------------------------------|
E|--------------------------------------------------------------------|
p p p p p p b
e|--------------------------------------------------------------------|
B|-------------------------------5-x-5-x-5-x-5-7-(9)-(7)-5-7----------|
G|-------------------------------5-x-5-x-5-x-5-7-(9)-(7)-5-7----------|
D|-19-17-16----------------------5-x-5-x-5-x-5-----------------7---11-|
A|----------19-17-15----------12-----------------------------8---8----|
E|-------------------19-17-15-----------------------------------------|
b
e|--------------15-18-(20)-17-----------------------------------------|
B|--------15-18-------------------------------------------------------|
G|-----15-------------------------------------------------------------|
D|-/15----------------------------------------------------------------|
A|--------------------------------------------------------------------|
E|--------------------------------------------------------------------|
Pre-Chorus

Chorus

Mad About You
Transcription by Espen Saga (totomania@spray.no)

w/delay
Slightly muted
> > > > 4 times
e|--------------------------------------|
B|-0-0--0-0--0-0--0-0--0-0--0--0--0-5-4-|
G|--------------------------------------|
D|--------------------------------------|
A|--------------------------------------|
E|--------------------------------------|
3rd time 2nd guitar plays:
2 times
e|--0--0--0--0--0--0-|
B|-/9--7--5--4--2--0-|
G|-------------------|
D|-------------------|
A|-------------------|
E|-------------------|
E C#m
There's something I must say something I must do
E C#m
I planned it all this way designed it just for you
A E
Do you wanna be with me... be with me at all
A C#m E/G#
Do you have to be so cool? your gentle touch maneuvered me
A B
But all the time I always knew

E
I'm really mad about you
E B
There's nothing bad about our love
F#m C#m
I'm giving you the only heart I have
E A B
But I'm afraid tonight it won't be enough

Can we go on this way there's nothing left to prove
It's not another game or another simple move
Do you believe in me... believe in me at all
Ar you telling me the truth? Is it just imagination
Or the perfect dream that I'm here with you

Chorus

Guitar solo

E C#m
e|--------------|------------------|
B|----5-5--/7-7-|----5-5--/7-7-5---|
G|-/4-----------|-/4-------------6-|
D|--------------|------------------|
A|--------------|------------------|
E|--------------|------------------|
E C#m
hold b.
e|-----------------------7-----|----------------------------|
B|----5-5--/7-7--5-7-(9)---(9)-|----5-5--7-7-5--------------|
G|-/4--------------------------|-/4------------6--6-4-6/9-6-|
D|-----------------------------|----------------------------|
A|-----------------------------|----------------------------|
E|-----------------------------|----------------------------|
A E
Do you wanna be with me... be with me at all
A C#m E/G#
Do you have to be so cool? your gentle touch maneuvered me
A B
But all the time I always knew

E
I'm really mad about you
E B
There's nothing bad about our love
F#m C#m
I'm giving you the only heart I have
E A B
But I'm afraid tonight it won't be enough

E
I'm really mad about you
E B
There's nothing bad about our love
F#m C#m
I never had a broken heart before
E/G#m A B
But I know you never tell, tell me to go

w/delay
Slightly muted
> > > > 4 times
e|--------------------------------------|
B|-0-0--0-0--0-0--0-0--0-0--0--0--0-5-4-|
G|--------------------------------------|
D|--------------------------------------|
A|--------------------------------------|
E|--------------------------------------|
3rd time 2nd guitar plays:
2 times
e|--0--0--0--0--0--0-|
B|-/9--7--5--4--2--0-|
G|-------------------|
D|-------------------|
A|-------------------|
E|-------------------|
end on E

Melanie
Transcription by Espen Saga (totomania@spray.no)

Intro:
Cm Bbsus9
e|---------------|-------|
B|--3-3----3-3---|-1-1---|
G|------5------5-|-----3-|
D|---------------|-------|
A|---------------|-------|
E|---------------|-------|
Verse:
Cm Bbsus9 Cm Bbsus9 Fsus9
e|---------------|-------|---------------|-------|---------------|
B|--3-3----3-3---|-1-1---|--3-3----3-3---|-1-1---|---------------|
G|------5------5-|-----3-|------5------5-|-----3-|-2-----0-----2-|
D|---------------|-------|---------------|-------|---3-----3-----|
A|---------------|-------|---------------|-------|-----3-----3---|
E|---------------|-------|---------------|-------|---------------|
Cm Bbsus9
Watching driving thru the night I'm all alone
Cm Bbsus9 Fsus9
Empty endless road a thousand miles to go
Cm Bbsus9
Midnight five million thoughts are passing in a row
Cm Bbsus9 Fsus9
Will you still be waiting there God only knows

Gm Eb Bbsus9 Fsus9
e|-------|-------|-------|---------------------------|
B|-------|-------|-------|---------------------------|
G|-3-2-3-|-3-3-3-|-3-3-3-|-2-----0-----2-----0-----2-|
D|-------|-------|-------|---3-----3-----3-----3-----|
A|-------|-------|-------|-----3-----3-----3-----3---|
E|-------|-------|-------|---------------------------|
Gm Eb Bbsus9 Fsus9
I can still see your face in my mind with every turn I take

Am Fsus9 C/E Fsus9 G Fsus9
e|---------------|---------------|--------------|-----1-|
B|-1-----0-----1-|-1-----1-----1-|-----1------1-|-8---1-|
G|---2-----2-----|---2-----2-----|---0-----0----|-7---0-|
D|-----2-----2---|-----3-----3---|-2-----3------|-5---3-|
A|---------------|---------------|--------------|-5---3-|
E|---------------|---------------|--------------|-------|
Am Fsus9 C/E Fsus9 G F
And the wind through my heart feels so cold as it calls out your name

G C Fsus9 Am G C Fsus9
Melanie nothing but the touch of your hand can rescue me
G C Fsus9 Am G C G Fsus9
Melanie reach inside this emptiness and you can set me free

Intro

Morning sun's in my eyes I'm tied to your soul
One chance one solitary life how could I let you go

Got a phone call or was it a dream a voice spoke to me
I could swear it was you that I heard crying desperately

Chorus

Powyższe "taby" są własną pracą autorów i reprezentują ich własne interpretacje piosenek.
[Proszę o kontakt jeśli coś jest nie tak. Nie znam się na muzyce od strony technicznej, więc mogą wystąpić niezamierzone błędy.]