TOTO


Informacje

KONCERT TOTO
28.02.2018, Kraków


Live At Montreux 1991 DVD
Live At Montreux 1991


www.toto-music.net
© 2002-2017 Julia Stoff
totomusic@interia.pl



r e k l a m a



H&B      

zespół toto, lukather, kimball, toto, paich, porcaro, phillips, toto, muzyka, phillinganes, toto, lukather, kimball, porcaro, paich, toto, phillips, muzyka zespołu toto, phillinganes, toto koncert 2015, williams, castro

teksty / taby > taby - kingdom of desire

Taby - Kingdom Of Desire


Gypsy Train
Transcription by Espen Saga (totomania@spray.no)

Intro:
e|----------|----------------------|---------|-----------------|
B|-7--9-9-9-|------------7--7-7--7-|----9--7-|-----------------|
G|-7--9-9-9-|-10-9-7--9--7--7-7--7-|----9--7-|-10-9-7--9--7--7-|
D|-7--9-9-9-|-10-9-7--9--7--7-7--7-|----9--7-|-10-9-7--9--7--7-|
A|----------|----------------------|-7-------|-----------------|
E|----------|----------------------|---------|-----------------|
Riff 1a:
e|---------------------------------|----------------------------------|
B|---------------------------------|----------------------------------|
G|---------------------------------|----------------------------------|
D|---------------------------------|----------------------------------|
A|-------------------------------1-|------------------------3-5-3-1---|
E|-3--1-1--3-3--1-1--3-3--1-1--3---|-3--1-1--3-3--1-1--3-3----------1-|
Downtown Jimmy say you're feelin' kinda blue
It's no problem this is whatcha gotta do
Telephone your baby tell her that you're workin' late
Come and pay a visit please don't hesitate

Riff 1b:
e|---------------------------------|----------------------------------|
B|---------------------------------|----------------------------------|
G|---------------------------------|----------------------------------|
D|---------------------------------|-------------------------------1--|
A|-------------------------------3-|-3--1-1--3-3--1-1--3-3--1-1--3----|
E|-5--3-3--5-5--3-3--5-5--3-3--5---|----------------------------------|
Come join the party come along and be our guest
Sit back and let us do the rest we're the best

D
Come on an' meet me at the station
D
Don't pack your bags just fix your hair
D
Gotta get up gotta get in gotta get out
D
Just look for me I'm always there

G F C G
Come on let's ride ride that gypsy train
G F C G
All aboard now don't you be afraid
G F C G
Come on let's ride ride that gypsy train
F C G
Feed the fire let's go one more time again

Medication little love and sympathy
Cool libation it's complimentary
Play a little poker love when the stakes are high
Lotta nasty women givin' everyone the eye
Say downtown Jimmy tell me whatcha need
Satisfaction guaranteed

It's a perfect situation
It's so nice to have you here
Gotta get up gotta get in gotta pull out
Happy shiny people everywhere

Chorus

Guitar solo

It's a perfect situation
It's so nice to have you here
Gotta get up gotta get in gotta put out
Happy shiny people everywhere

Chorus

Don't Chain My Heart
Transcription by Espen Saga (totomania@spray.no)

e|--------------------|---------------|------------------|
B|--10----------------|---------------|----------10-(12)-|
G|-----9-(11)-(9)-7---|-----7---------|------------------|
D|------------------9-|---7---9-------|------------------|
A|--------------------|-9--------5--7-|--7/9--7----------|
E|--------------------|---------------|------------------|
Bm / Bm / Em / G A (reapeat)

Tired and frozen, I'm under your spell
I thought I knew you but now I know you well
I wake up beside you, move across your killing floor
I need my freedom and I see an open door
The room is getting smaller and the walls are closin' in
No one's leavin' and nobody's gettin' in

Bm D Asus9
I try to run, I try to hide
Em
I try to tell you what I'm feelin' inside
Bm D
Should I stay, should I go
Asus9 F#
You know I wanna touch you but there's nothin' left to hold

Bm D
Don't chain my heart (Don't chain my heart)
Em G
Don't chain my soul (Don't chain my soul)
Asus9 Bm D
Don't chain my heart (Don't chain my heart
Em G Asus9
'Cause I got to let it go

Bm / Bm / Em / G A (reapeat)

Looks like trouble, the signs are everywhere
I bend a little but you take more than you share
Crimes of passion, crimes of mortal men
It's a deadly attraction and I won't be fooled again, baby
The storm is coming, the winds begin to rise
Please release me from this house of compromise

Bm D
All day, all night
Asus9 Em
Your love is like an outlaw waiting till the time is right
Bm D
No one's wrong, no one's to blame
Asus9 F#
Maybe it's just too hot because we're standin' in the flame

Bm D
Don't chain my heart (Don't chain my heart)
Em G
Don't chain my soul (Don't chain my soul)
Asus9 Bm D
Don't chain my heart (Don't chain my heart)
Em G Asus9
'Cause I got to let it go

Em Bm Asus9
I'm a victim of your pain and jealousy
G Asus9 Em
I feel like a prisoner and you hold the lock and key
Bm
We lost our vision, we lost our paradise
Asus9 F#
But there's still a part of me I refuse to sacrifice

Solo 1 Bm / Bm / Em / G Asus9

Bm D Asus9
I try to run, I try to hide
Em
I need to tell you what I'm feelin' inside
Bm D
Should I stay, should I go
Asus9 F#
You know I wanna touch you but there's nothin' left to hold

Chorus

Solo 2 Bm / D / Em / G Asus9 /

Chorus

Never Enough
Transcription by Martijn van Welie (martijn@cs.vu.nl)

x2
e|----------------------------------------------|
B|-------------------------------3-3-3--2-------|
G|-7-9-9--7-7-7-6--2--4---7-9-9--4-4-4--2--7-9\-|
D|-7-9-9--7-7-7-7--2--2---7-9-9--4-4-4--2--7-9\-|
A|-5-7-7--5-5-5-4--0--2---5-7-7------------5-7\-|
E|----------------------------------------------|
Verse:
p.m.-----------------------------------|
e|------------------------------------------|
B|------------------------------------------|
G|------------------------------------------|
D|------------------------------------------|
A|------------------------------------------|
E|-0-0-0-0--0-0-0-0--0-0-0-0--0-0-0-0--0-0--|

e|-----------------------0--| B|-----------------------0--| G|-7-9-9--7-7-7-6--2--4-----| D|-7-9-9--7-7-7-7--2--2-----| A|-5-7-7--5-5-5-4--0--2-----| E|--------------------------|
Seems the world needs a change in its attitude
It doesn't seem like there's much that a man can do
They try to sell the earth on a wild crusade
Then complain about not bein' paid

B B
How can some people have the nerve
A E
Hell hasn't froze but it's on the verge

e|-----------0--|
B|-----------0--|
G|--------------|
D|--------------|
A|-------2------|
E|-0-3/4---4----|
B B
It's gone way past the point of greed
C D
How many lifetimes will we need

Cause it's never enough they keep on takin' till they take too much

e|----------------------------------------------|
B|-------------------------------3-3-3--2-------|
G|-7-9-9--7-7-7-6--2--4---7-9-9--4-4-4--2--7-9\-|
D|-7-9-9--7-7-7-7--2--2---7-9-9--4-4-4--2--7-9\-|
A|-5-7-7--5-5-5-4--0--2---5-7-7------------5-7\-|
E|----------------------------------------------|
Cause it's never enough it won't be long until they run out of luck

> > > >
e|----------------------------------------|
B|-------------------------------3-3-3--2-|
G|-7-9-9--7-7-7-6--2--4---7-9-9--4-4-4--2-|
D|-7-9-9--7-7-7-7--2--2---7-9-9--4-4-4--2-|
A|-5-7-7--5-5-5-4--0--2---5-7-7---------0-|
E|----------------------------------------|
We've been bought and sold for a thousand years
And all I got to show is a six pack full of tears
And all the while the fat cats they watch from the hill

slow b
e|-----------------|
B|---------5--8--5-|
G|-----------------|
D|--7-(9)----------|
A|-----------------|
E|-----------------|
Nothin's changed, it never has an' never will

slow b
e|---------------------------|
B|---------5--8-8-(10)-8-5---|
G|--7-(9)------------------4-|
D|---------------------------|
A|---------------------------|
E|---------------------------|
You better strap on your sharpest spurs
For the ride of your life 'cause it's gonna hurt
You can't say you didn't ask for this
It's too late to find somebody's ass to kick

Chorus

vibrato w/bar
e|-----------------|
B|-----------------|
G|-----------------|
D|--2--------------|
A|--2--------------|
E|--0--------------|
natural harmonics----------|
vibrato w/bar bar dive
e|------------------------------|------------------|
B|-----------------7--------12\-|------------------|
G|-5-------------5---7----------|------------------|
D|------------------------7-----|------------------|
A|----------------------4-------|------------------|
E|------------------------------|---3/4-3-0-4-5-6--|
Who's got the money and who gets the rent
By the time it's all over you ain't got a cent

p.m. p.m. 4 times
e|--------------------0------0-----|
B|--------------------0------0-----|
G|---------------------------------|
D|---------------------------------|
A|-----5---------------------------|
E|-6/7---7\5-3-5-3--0---0-0----0-0-|
Guitar solo:
\/ \/ \/ \/ \/ b b hold bending b
e|---------------------------------------------------15------|-------------|
B|-12-------12----15--15-(17)-(17)-(17)-15-(17)-(17)----(17)-|-------------|
G|-------14----14--------------------------------------------|-------------|
D|----14-----------------------------------------------------|---5-7-7-(9)-|
A|-----------------------------------------------------------|-7-----------|
E|-----------------------------------------------------------|-------------|
b b b b h p
e|--------------|----------------15-(17)-15-12--15-(17)-15--12-15-12----12-|
B|-x-8-(10)-8-5-|-------15-(17)--------------------------------------15----|
G|--------------|-14-12----------------------------------------------------|
D|--------------|----------------------------------------------------------|
A|--------------|----------------------------------------------------------|
E|--------------|----------------------------------------------------------|
b hold bending p
e|-------------------------------------------------------------------------|
B|---------15--------------------------------------------------------------|
G|-14-(16)----(16)--14-12----14----14-16-----------------------------------|
D|------------------------14----14-----------------------------------------|
A|-------------------------------------------------------------------------|
E|-------------------------------------------------------------------------|
How can some people have the nerve
Hell hasn't froze but it's on the verge
It's gone way past the point of greed
How many lifetimes will we need

Chorus

Interlude:

natural harmonic
w/tremolo bar 1.
e|--------------||--10---9---7-----------||-------|
B|--------------||--10--10---8-----8-----||-------|
G|-5------------||--11---9---7--/7--/7-6-||-7-8-9-|
D|--------------||-----------------------||-7-8-9-|
A|--------------||-----------------------||-5-6-7-|
E|--------------||-----------------------||-------|
2. 3 times 4th time b
e|------------------------------| e|--------------------------------------|
B|------------------------------| B|--------------------------------------|
G|-7-8-9--7-8-9--7-8-9----x-x-x-| G|-7-8-9--7-8-9--2-(4)-2--0-------------|
D|-7-8-9--7-8-9--7-8-9----x-x-x-| D|-7-8-9--7-8-9-------------2-0---------|
A|-5-6-7--5-6-7--5-6-7----x-x-x-| A|-5-6-7--5-6-7-----------------2-0-----|
E|---------------------0--------| E|----------------------------------3-0-|
b
e|------------------------------|--------------------------------------|
B|------------------------------|--------------------------------------|
G|-7-8-9--7-8-9--7-8-9----x-x-x-|-7-8-9--7-8-9--2-(4)-2--0-------------|
D|-7-8-9--7-8-9--7-8-9----x-x-x-|-7-8-9--7-8-9-------------2-0---------|
A|-5-6-7--5-6-7--5-6-7----x-x-x-|-5-6-7--5-6-7-----------------2-0-----|
E|---------------------0--------|----------------------------------3-0-|

e|------------------------------|--------------| B|------------------------------|--------------| G|-7-8-9--7-8-9--7-8-9----x-x-x-|-7-8-9--7-8-9-| D|-7-8-9--7-8-9--7-8-9----x-x-x-|-7-8-9--7-8-9-| A|-5-6-7--5-6-7--5-6-7----x-x-x-|-5-6-7--5-6-7-| E|---------------------0--------|--------------|
b b b >
e|----------------------|----------------------|------------------------|
B|----------------------|----------------------|------------------------|
G|-2-(4)-2--0-----------|-2-(4)-2--0-----------|-2-(4)-2--0-------------|
D|------------2-0-------|------------2-0-------|------------2-0-------2-|
A|----------------2-0---|----------------2-0---|----------------2-0---2-|
E|--------------------3-|--------------------3-|--------------------3-0-|
Part A ,main riff:

e-------------------------------------------------
B--------------------------------------3-3-2------
G---7-9-9----7--7--7--6--2--4---7-9-9--2-2-2--7/9-
D---7-9-9----7--7--7--7--2--2---7-9-9--4-4-2--7/9-
A---5-7-7----5--5--5--4--0--2---5-7-7---------5/7-
E-------------------------------------------------
Verse:

E chord and main riff

Chorus :

B5 B5 A5 E
B5 B5 C5 D5

Part B:
<PM > <NH >
e-------------------------------------------------
B----------------7----------12--------------------
G--------5~----5---7------------------------------
D------0------------------7-----------------------
A----0-----------------4--------------------------
E--0---------------------------------/3-4-0-4-5-6-
Solo riff (repeat)

e------------------------------
B--------------------5------5--
G--------------------4------4--
D--------------------2------2--
A------5-----------------------
E-/7-----5-3-5-3~--0----X-0----
Part C (instrumental) :
NH
e------10----9----7------------------------10---9---7--------------
B------10---10----8------8-----------------10--10---8-----8--------
G------11----9----7---/7---7-6~----7-8-9---11---9---7--/7---7-6~---
D--5~------------------------------7-8-9---------------------------
A----------------------------------5-6-7---------------------------
E------------------------------------------------------------------

e------------------------------------------------------------------ B-----------------------------4x----------------------------repeat- G--7-8-9----7-8-9----7-8-9----------------------------------------- D--7-8-9----7-8-9----7-8-9---------7(9)-7-5------------------------ A--5-6-7----5-6-7----5-6-7------------------7-5-------------------- E---------------------------0-------------------7-5-3-0------------
2 Hearts

Intro:

C G Dm F Am C G Am F
e|------3-------------|-------------3--------|
B|------3---3---------|-------------3--------|
G|--5---0---2---5--2--|-------------0--2-----|
D|--5---0---0---3--2--|--------0-2--0--2--3--|
A|--3--------------0--|--0-2-3---------0--3--|
E|------3-------------|-------------3-----1--|
C G Dm F Am
b b
e|--------------------|-------------------------|
B|-15-(17)-(15)-13-15-|-15-(17)-(15)-13---13----|
G|--------------------|-----------------14---14-|
D|--------------------|-------------------------|
A|--------------------|-------------------------|
E|--------------------|-------------------------|
C G Am F
b
e|----------------------------------|
B|----15-(17)-(15)-13-15--13-12-----|
G|-12---------------------------12--|
D|----------------------------------|
A|----------------------------------|
E|----------------------------------|
C G Dm
You said you would wait for me
Am
But something went wrong
C G F
The house was empty, your pictures gone
C G Dm
I knew you'd come back one day
Am
Our love was so strong
C G F
The past behind us, it's here you belong

Dm F
'Cause I'm deep inside you
Dm F
And deep inside of me
Am G F
I always knew that we would always be

C G Dm Am
Two hearts forever, one heart alone
C G F
I need to know your love is mine
C G Dm Am
Two hearts forever, one heart alone
C G F
I won't let go of you this time

C G Dm
You could've talked to me
Am
What changed your mind
C G F
I could have been there by your side
C G Dm
You thought you could walk away
Am
But you know that's a lie
C G F
This loneliness is hard to hide

Dm F
It's so easy to surrender
Dm F
And temptation always finds a way
Am G F
You must hold on, you know we must hold on

Chorus

Solo - Dm F / Dm F / Dm F / G /

>b b
e|-12-(13)-(12)-10----|-12-(13)-(12)-10----10-----|
B|-----------------13-|-----------------13----10--|
G|--------------------|---------------------------|
D|--------------------|---------------------------|
A|--------------------|---------------------------|
E|--------------------|---------------------------|
b
e|--------------------------|-------10-----10-12--10-12-13-|
B|-13-(15)-(13)-10-13----13-|-10-13-----13-----------------|
G|--------------------12----|------------------------------|
D|--------------------------|------------------------------|
A|--------------------------|------------------------------|
E|--------------------------|------------------------------|
b h.o. p.p.
e|-12-13-15-15-(17)-(15)-13-15-|-13-12-12-13-12-----------------|
B|-----------------------------|----------------15-13-15-13-----|
G|-----------------------------|----------------------------14\-|
D|-----------------------------|--------------------------------|
A|-----------------------------|--------------------------------|
E|-----------------------------|--------------------------------|
Chorus

Wings Of Time
Transcription by Espen Saga (totomania@spray.no)

F#m A E
My faithful companion, I've lost my way once again
F#m A E
A prisoner of darkness, I let you down my friend
F#m A E
A heart left abandoned takes so long to heal its wounds
F#m A E D E
Your touch not forgotten, the end of the dreams come too soon
D E D
In this lonely room, till I leave this world
E C#m
Always know that

F#m A E F#m A E
I will surrender my heart to the sky
F#m A E
Our love doesn't end here
D
It lives forever
E F#m A E
On the wings of time

F#m A E
The road that I travel don't know which way I should turn
F#m A E
Till I find the aswer know that the fire within me will always burn
F#m A E
Angel of mercy, please why so much pain?
F#m A E D E
I cry for forgiveness I'm the destitute man who still remains
D E D
It's so hard to explain, till I leave this world
E C#m
Always know that

Chorus

A C#m F#m E A C#m
Sometimes I feel just like crying, I can't turn my back
F#m
All these years I've been trying
G A
A vision of you keeps reappearing to me
G A
You can't blame yourself just reach out your hand and believe

F#m A E

F#m A E
We sail in dark waters Lord give me some peace of mind
F#m A E D E
Temptation before me, ahead lies the tower of truth that I must find
D E D E
To you I will climb, till I leave this cruel world far behind
E
Always know that

Chorus

Jake To The Bone
Transcription by Espen Saga (totomania@spray.no)

Theme:
slightly muted > >
e|----------------------------------------------------|
B|-17\--------------------------------------12-14-12\-|
G|---------------12-14-12-------------------12-14-12\-|
D|---------12-14----------14-12-14----12-14-----------|
A|------14-------------------------14-----------------|
E|----------------------------------------------------|
> >
e|----------------------------------------------------|
B|-------------------------------------12-14-12\------|
G|----------12-14-12-------------------12-14-12\------|
D|----12-14----------14-12-14----12-14----------------|
A|-14-------------------------14----------------------|
E|----------------------------------------------------|
> >
e|----------------------------------------------------|
B|--------------------------------9-11-9\-------------|
G|---------9-11-9-----------------9-11-9\-------------|
D|----9-11--------11-9-11----9-11---------------------|
A|-11---------------------11--------------------------|
E|----------------------------------------------------|
> >
e|----------------------------------------------------|
B|--------------------------------9-11-9\-------------|
G|---------9-11-9-----------------9-11-9\-------------|
D|----9-11--------11-9-11----9-11---------------------|
A|-11---------------------11--------------------------|
E|----------------------------------------------------|
Part A:
b b
e|-----------------------------------12-14-14-(15)-14-|
B|----------------------12--12-13-15------------------|
G|-11-(13)-11--11-12-14-------------------------------|
D|----------------------------------------------------|
A|----------------------------------------------------|
E|----------------------------------------------------|
Riff A:
p.m. p.o. p.m. p.o. 16 times
e|-------------------------|---------------------------|
B|-------------------------|---------------------------|
G|-------------------------|---------------------------|
D|----2--0-----------------|----2--0-------------------|
A|----------0-0--4-0--0--2-|----------0-0--4-0--0--2---|
E|-0-----------------------|-0-----------------------3-|
Part B: Part C:
> >
e|----------------------------|-------------------------|
B|-10---9--10---9--10---9--10-|-14--12--14--12--14--12--|
G|--9---9---9---9---9---9---9-|-12--12--12--12--12--12--|
D|--9---9---9---9---9---9---9-|-------------------------|
A|----------------------------|-------------------------|
E|----------------------------|-------------------------|
Guitar solo:
\/ \/ hold bending
e|----------------------------------------------------------|
B|-------------------------------------------------(10)-----|
G|------------------9--9-11-12-16-14-12-11--9-(11)------(9)-|
D|-/7-(7)/11-(11)\9-----------------------------------------|
A|----------------------------------------------------------|
E|----------------------------------------------------------|
b
e|----------------------------------------------------------|
B|-----------------------------12-14----17-17-(19)-(17)-(19)|
G|-9/11-(11)\6--------12-13-14-------14---------------------|
D|--------------11-14---------------------------------------|
A|----------------------------------------------------------|
E|----------------------------------------------------------|
b p.o. h.o.
e|----------------------------------------------------------|
B|-17-(19)-(17)-15-14--15-17--------------------------------|
G|---------------------------16-(18)-16-14-16--16--14\12\11-|
D|----------------------------------------------------------|
A|----------------------------------------------------------|
E|----------------------------------------------------------|
p.o.
e|----------------------------------------------------------|
B|------------------------------17--------------------------|
G|-14----------13-16--15-14-13--------16----14----13--13-14-|
D|----14-12-14---------------------14-----------------------|
A|---------------------------------------14----14-----------|
E|----------------------------------------------------------|
p.o. h.o. h.o. h.o.
e|----------------------------------------12----------------|
B|-------------------------------12-14-15----15-14-15-14----|
G|-13-11----11----------11-13-14-------------------------16-|
D|-------14----11-12-14-------------------------------------|
A|----------------------------------------------------------|
E|----------------------------------------------------------|

e|----------------------------------------------------------| B|----------------------------------------------------------| G|-14-12--16-14-12----14-12-------12------------------------| D|-----------------16-------16-14----16-14-12--16-14-12-----| A|----------------------------------------------------------| E|----------------------------------------------------------|
h.o.
e|-------------------------------12-12-14--14-(15)-12-------|
B|----------------------12-14-15----------------------------|
G|------------11-13-14--------------------------------------|
D|-12-14--14------------------------------------------------|
A|----------------------------------------------------------|
E|----------------------------------------------------------|

e|-------14-15---------14-15-17--14-------------------------| B|----17------------17--------------------------------------| G|-16------------16-----------------------------------------| D|----------------------------------------------------------| A|----------------------------------------------------------| E|----------------------------------------------------------|
Riff B:

e|-------------------------|---------------------------|
B|-------------------------|---------------------------|
G|-------------------------|---------------------------|
D|----4--2-----------------|----4--2-------------------|
A|----------2-2--6-2--2--4-|----------2-2--6-2--2--4---|
E|-2-----------------------|-2-----------------------5-|
Riff C:

e|-------------------------|---------------------------|
B|-------------------------|---------------------------|
G|-------------------------|---------------------------|
D|----4--2-----------------|----4--2-------------------|
A|----------2-2--6-2--2--4-|----------2-2--6-2--2--4-2-|
E|-2-----------------------|-2-------------------------|

e|-------------------------|---------------------------| B|-------------------------|---------------------------| G|-------------------------|---------------------------| D|----4--2-----------------|----4--2-------------------| A|-0--------0-0--6-0--0--4-|-0--------0-0--6-0--0--4-2-| E|-------------------------|---------------------------|
e|-------------------------|---------------------------| B|-------------------------|---------------------------| G|-------------------------|---------------------------| D|----4--2-----------------|----4--2-------------------| A|-2--------2-2--6-2--2--4-|-2--------2-2--6-2--2--4-2-| E|-------------------------|---------------------------|
Kingdom Of Desire
Transcription by Espen Saga (totomania@spray.no)

(original version 1/2 step down)

Riff a:(intro) X 8
e------5-------7------10-------5------3-------|
B----- 5-------7------10-------5------3-------|
G---------------------------------------------|
D---------------------------------------------|
A---------------------------------------------|
E---------------------------------------------|
em d
You used to be on fire, now you chill me to the bone
am em
We used to fly like angels, now we're sinking like a stone
em d
You say you're trying to help me but that ain't the way it feels
am em
I think you're trying to kill me with those stiletto heels

Riff b
e------7-------10------5-------7--------------|
B----- 7-------10------5-------7--------------|
G---------------------------------------------|
D---------------------------------------------|
A---------------------------------------------|
E---------------------------------------------|
em (w/riff b)
Paint the town black babe and let that pendulum swing
em
I been stabbed in the back babe
em
And if you don't love me, I'll never feel a thing
b5 c5 d5 em5
And oh, one thing I know, there's only one place left for me to go

Chorus:
a5 b5 d5 em5 a5 b5 d5 em5
Going back to the kingdom of desire, going down to the valley of the gun
a5 b5 d5 em5 a5 g d/f# d5 em5
I'm gonna stand too close to the fire, I'm gonna fly too close to the sun

Riff a X 4

em d
They say the king of love sleeps on a velvet bed
am em
My sheets feel like sandpaper, and my pillow feels like lead
em d
But as sure as Atlantis sank into the sea
am em
I'm sinking like a stone babe, that's how it's got to be

em (w/Riff b)
Paint the town black babe and let that pendulum swing
em
I been stabbed in the back babe
em
And if you don't love me, I'll never feel a thing

b5 c5 d5 em5
And oh, if I don't have you, there's only one thing left for me to do

Chorus: Going back to the...

Riff c X 4
e---------------------------------------------|
B---------------------------------------------|
G---------------------------------------------|
D---------------------------------------------|
A-------7--10--5--7--0--2------0--------------|
E-0------------------------3--------0---------|
Solo:

em d
When you dig up God's little acre, you lose all peace of mind
am em
You stare into the distance, looking for a sign
em d
But that sign it never comes babe, your wishes won't come true
am em
You keep praying for the rain while the sun beats down on you

b5 c5 d5 em5
And oh, one thing I know, there's only one place left for me to go

Chorus (2x): Going back to the...

I'm gonna fly too close to the sun, yeah
I'm gonna fly too close to the sun

Powyższe "taby" są własną pracą autorów i reprezentują ich własne interpretacje piosenek.
[Proszę o kontakt jeśli coś jest nie tak. Nie znam się na muzyce od strony technicznej, więc mogą wystąpić niezamierzone błędy.]


  ⇑ na górę